ISO-10303-21;
HEADER;
/* Generated by software containing ST-Developer
 * from STEP Tools, Inc. (www.steptools.com) 
 */

FILE_DESCRIPTION(
/* description */ ('',
'CAx-IF Rec.Pracs.---Representation and Presentation of Product Manufa
cturing Information (PMI)---4.0---2014-10-13'),
/* implementation_level */ '2;1');

FILE_NAME(
/* name */ '250uL_reservoir_2025_02_20.step',
/* time_stamp */ '2025-02-20T17:20:45-05:00',
/* author */ (''),
/* organization */ (''),
/* preprocessor_version */ 'ST-DEVELOPER v20',
/* originating_system */ 'Autodesk Translation Framework v13.20.0.188',

/* authorisation */ '');

FILE_SCHEMA (('AP242_MANAGED_MODEL_BASED_3D_ENGINEERING_MIM_LF { 1 0 10303 442 1 1 4 }'));
ENDSEC;

DATA;
#10=MECHANICAL_DESIGN_GEOMETRIC_PRESENTATION_REPRESENTATION('',(#23,#24),
#414);
#11=ITEM_DEFINED_TRANSFORMATION($,$,#222,#252);
#12=ITEM_DEFINED_TRANSFORMATION($,$,#243,#253);
#13=(
REPRESENTATION_RELATIONSHIP($,$,#428,#427)
REPRESENTATION_RELATIONSHIP_WITH_TRANSFORMATION(#11)
SHAPE_REPRESENTATION_RELATIONSHIP()
);
#14=(
REPRESENTATION_RELATIONSHIP($,$,#429,#427)
REPRESENTATION_RELATIONSHIP_WITH_TRANSFORMATION(#12)
SHAPE_REPRESENTATION_RELATIONSHIP()
);
#15=CONTEXT_DEPENDENT_SHAPE_REPRESENTATION(#13,#425);
#16=CONTEXT_DEPENDENT_SHAPE_REPRESENTATION(#14,#426);
#17=NEXT_ASSEMBLY_USAGE_OCCURRENCE('Reservoir:1','Reservoir:1',
'Reservoir:1',#431,#432,'Reservoir:1');
#18=NEXT_ASSEMBLY_USAGE_OCCURRENCE('Safe area:1','Safe area:1',
'Safe area:1',#431,#433,'Safe area:1');
#19=SHAPE_REPRESENTATION_RELATIONSHIP('SRR','None',#428,#21);
#20=SHAPE_REPRESENTATION_RELATIONSHIP('SRR','None',#429,#22);
#21=ADVANCED_BREP_SHAPE_REPRESENTATION('',(#25),#412);
#22=ADVANCED_BREP_SHAPE_REPRESENTATION('',(#26),#413);
#23=STYLED_ITEM('',(#447),#25);
#24=STYLED_ITEM('',(#448),#26);
#25=MANIFOLD_SOLID_BREP('Body1',#196);
#26=MANIFOLD_SOLID_BREP('Body1',#197);
#27=FACE_BOUND('',#73,.T.);
#28=FACE_BOUND('',#75,.T.);
#29=FACE_BOUND('',#79,.T.);
#30=FACE_BOUND('',#81,.T.);
#31=PLANE('',#241);
#32=PLANE('',#242);
#33=PLANE('',#250);
#34=PLANE('',#251);
#35=CYLINDRICAL_SURFACE('',#239,0.625);
#36=CYLINDRICAL_SURFACE('',#244,3.51715561259646);
#37=CYLINDRICAL_SURFACE('',#247,4.5);
#38=LINE('',#372,#44);
#39=LINE('',#377,#45);
#40=LINE('',#382,#46);
#41=LINE('',#386,#47);
#42=LINE('',#395,#48);
#43=LINE('',#401,#49);
#44=VECTOR('',#278,3.26488309456424);
#45=VECTOR('',#285,4.);
#46=VECTOR('',#290,0.625);
#47=VECTOR('',#295,0.625);
#48=VECTOR('',#308,3.51715561259646);
#49=VECTOR('',#315,4.5);
#50=CONICAL_SURFACE('',#232,3.26488309456424,0.03490658503989);
#51=CONICAL_SURFACE('',#234,4.,0.0349065850398867);
#52=CONICAL_SURFACE('',#236,0.625,1.22173047639603);
#53=TOROIDAL_SURFACE('',#228,3.51715561259646,0.5);
#54=FACE_OUTER_BOUND('',#66,.T.);
#55=FACE_OUTER_BOUND('',#67,.T.);
#56=FACE_OUTER_BOUND('',#68,.T.);
#57=FACE_OUTER_BOUND('',#69,.T.);
#58=FACE_OUTER_BOUND('',#70,.T.);
#59=FACE_OUTER_BOUND('',#71,.T.);
#60=FACE_OUTER_BOUND('',#72,.T.);
#61=FACE_OUTER_BOUND('',#74,.T.);
#62=FACE_OUTER_BOUND('',#76,.T.);
#63=FACE_OUTER_BOUND('',#77,.T.);
#64=FACE_OUTER_BOUND('',#78,.T.);
#65=FACE_OUTER_BOUND('',#80,.T.);
#66=EDGE_LOOP('',(#137,#138,#139,#140,#141,#142));
#67=EDGE_LOOP('',(#143,#144,#145,#146));
#68=EDGE_LOOP('',(#147,#148,#149,#150,#151));
#69=EDGE_LOOP('',(#152,#153,#154,#155));
#70=EDGE_LOOP('',(#156,#157,#158,#159,#160,#161));
#71=EDGE_LOOP('',(#162,#163,#164,#165,#166));
#72=EDGE_LOOP('',(#167));
#73=EDGE_LOOP('',(#168));
#74=EDGE_LOOP('',(#169));
#75=EDGE_LOOP('',(#170));
#76=EDGE_LOOP('',(#171,#172,#173,#174));
#77=EDGE_LOOP('',(#175,#176,#177,#178));
#78=EDGE_LOOP('',(#179));
#79=EDGE_LOOP('',(#180));
#80=EDGE_LOOP('',(#181));
#81=EDGE_LOOP('',(#182));
#82=CIRCLE('',#223,2.0130302149885);
#83=CIRCLE('',#224,2.0130302149885);
#84=CIRCLE('',#225,1.49999999999998);
#85=CIRCLE('',#226,3.);
#86=CIRCLE('',#227,3.);
#87=CIRCLE('',#229,3.51715561259646);
#88=CIRCLE('',#230,0.5);
#89=CIRCLE('',#231,4.01685102610601);
#90=CIRCLE('',#233,3.26488309456424);
#91=CIRCLE('',#235,4.34920769491748);
#92=CIRCLE('',#237,0.625);
#93=CIRCLE('',#238,0.625);
#94=CIRCLE('',#240,0.625);
#95=CIRCLE('',#245,3.51715561259646);
#96=CIRCLE('',#246,3.51715561259646);
#97=CIRCLE('',#248,4.5);
#98=CIRCLE('',#249,4.5);
#99=VERTEX_POINT('',#355);
#100=VERTEX_POINT('',#356);
#101=VERTEX_POINT('',#359);
#102=VERTEX_POINT('',#361);
#103=VERTEX_POINT('',#365);
#104=VERTEX_POINT('',#367);
#105=VERTEX_POINT('',#371);
#106=VERTEX_POINT('',#375);
#107=VERTEX_POINT('',#379);
#108=VERTEX_POINT('',#380);
#109=VERTEX_POINT('',#385);
#110=VERTEX_POINT('',#392);
#111=VERTEX_POINT('',#394);
#112=VERTEX_POINT('',#398);
#113=VERTEX_POINT('',#400);
#114=EDGE_CURVE('',#99,#100,#82,.T.);
#115=EDGE_CURVE('',#100,#99,#83,.T.);
#116=EDGE_CURVE('',#100,#101,#84,.T.);
#117=EDGE_CURVE('',#102,#101,#85,.T.);
#118=EDGE_CURVE('',#101,#102,#86,.T.);
#119=EDGE_CURVE('',#103,#103,#87,.T.);
#120=EDGE_CURVE('',#103,#104,#88,.T.);
#121=EDGE_CURVE('',#104,#104,#89,.T.);
#122=EDGE_CURVE('',#102,#105,#38,.T.);
#123=EDGE_CURVE('',#105,#105,#90,.T.);
#124=EDGE_CURVE('',#106,#106,#91,.T.);
#125=EDGE_CURVE('',#106,#104,#39,.T.);
#126=EDGE_CURVE('',#107,#108,#92,.T.);
#127=EDGE_CURVE('',#108,#99,#40,.T.);
#128=EDGE_CURVE('',#108,#107,#93,.T.);
#129=EDGE_CURVE('',#107,#109,#41,.T.);
#130=EDGE_CURVE('',#109,#109,#94,.T.);
#131=EDGE_CURVE('',#110,#110,#95,.T.);
#132=EDGE_CURVE('',#110,#111,#42,.T.);
#133=EDGE_CURVE('',#111,#111,#96,.T.);
#134=EDGE_CURVE('',#112,#112,#97,.T.);
#135=EDGE_CURVE('',#112,#113,#43,.T.);
#136=EDGE_CURVE('',#113,#113,#98,.T.);
#137=ORIENTED_EDGE('',*,*,#114,.F.);
#138=ORIENTED_EDGE('',*,*,#115,.F.);
#139=ORIENTED_EDGE('',*,*,#116,.T.);
#140=ORIENTED_EDGE('',*,*,#117,.F.);
#141=ORIENTED_EDGE('',*,*,#118,.F.);
#142=ORIENTED_EDGE('',*,*,#116,.F.);
#143=ORIENTED_EDGE('',*,*,#119,.F.);
#144=ORIENTED_EDGE('',*,*,#120,.T.);
#145=ORIENTED_EDGE('',*,*,#121,.F.);
#146=ORIENTED_EDGE('',*,*,#120,.F.);
#147=ORIENTED_EDGE('',*,*,#117,.T.);
#148=ORIENTED_EDGE('',*,*,#118,.T.);
#149=ORIENTED_EDGE('',*,*,#122,.T.);
#150=ORIENTED_EDGE('',*,*,#123,.F.);
#151=ORIENTED_EDGE('',*,*,#122,.F.);
#152=ORIENTED_EDGE('',*,*,#124,.F.);
#153=ORIENTED_EDGE('',*,*,#125,.T.);
#154=ORIENTED_EDGE('',*,*,#121,.T.);
#155=ORIENTED_EDGE('',*,*,#125,.F.);
#156=ORIENTED_EDGE('',*,*,#126,.T.);
#157=ORIENTED_EDGE('',*,*,#127,.T.);
#158=ORIENTED_EDGE('',*,*,#114,.T.);
#159=ORIENTED_EDGE('',*,*,#115,.T.);
#160=ORIENTED_EDGE('',*,*,#127,.F.);
#161=ORIENTED_EDGE('',*,*,#128,.T.);
#162=ORIENTED_EDGE('',*,*,#126,.F.);
#163=ORIENTED_EDGE('',*,*,#129,.T.);
#164=ORIENTED_EDGE('',*,*,#130,.T.);
#165=ORIENTED_EDGE('',*,*,#129,.F.);
#166=ORIENTED_EDGE('',*,*,#128,.F.);
#167=ORIENTED_EDGE('',*,*,#119,.T.);
#168=ORIENTED_EDGE('',*,*,#130,.F.);
#169=ORIENTED_EDGE('',*,*,#124,.T.);
#170=ORIENTED_EDGE('',*,*,#123,.T.);
#171=ORIENTED_EDGE('',*,*,#131,.F.);
#172=ORIENTED_EDGE('',*,*,#132,.T.);
#173=ORIENTED_EDGE('',*,*,#133,.F.);
#174=ORIENTED_EDGE('',*,*,#132,.F.);
#175=ORIENTED_EDGE('',*,*,#134,.F.);
#176=ORIENTED_EDGE('',*,*,#135,.T.);
#177=ORIENTED_EDGE('',*,*,#136,.F.);
#178=ORIENTED_EDGE('',*,*,#135,.F.);
#179=ORIENTED_EDGE('',*,*,#136,.T.);
#180=ORIENTED_EDGE('',*,*,#131,.T.);
#181=ORIENTED_EDGE('',*,*,#134,.T.);
#182=ORIENTED_EDGE('',*,*,#133,.T.);
#183=(
BOUNDED_SURFACE()
B_SPLINE_SURFACE(2,2,((#328,#329,#330,#331,#332,#333,#334,#335,#336),(#337,
#338,#339,#340,#341,#342,#343,#344,#345),(#346,#347,#348,#349,#350,#351,
#352,#353,#354)),.UNSPECIFIED.,.F.,.T.,.F.)
B_SPLINE_SURFACE_WITH_KNOTS((3,3),(3,2,2,2,3),(-1.86976709111519E-14,1.22173047639605),
(-3.14159265358979,-1.5707963267949,0.,1.5707963267949,3.14159265358979),
 .UNSPECIFIED.)
GEOMETRIC_REPRESENTATION_ITEM()
RATIONAL_B_SPLINE_SURFACE(((1.,0.707106781186548,1.,0.707106781186548,1.,
0.707106781186548,1.,0.707106781186548,1.),(0.819152044288981,0.579227965339562,
0.819152044288981,0.579227965339562,0.819152044288981,0.579227965339562,
0.819152044288981,0.579227965339562,0.819152044288981),(1.,0.707106781186548,
1.,0.707106781186548,1.,0.707106781186548,1.,0.707106781186548,1.)))
REPRESENTATION_ITEM('')
SURFACE()
);
#184=ADVANCED_FACE('',(#54),#183,.T.);
#185=ADVANCED_FACE('',(#55),#53,.T.);
#186=ADVANCED_FACE('',(#56),#50,.F.);
#187=ADVANCED_FACE('',(#57),#51,.T.);
#188=ADVANCED_FACE('',(#58),#52,.F.);
#189=ADVANCED_FACE('',(#59),#35,.F.);
#190=ADVANCED_FACE('',(#60,#27),#31,.T.);
#191=ADVANCED_FACE('',(#61,#28),#32,.T.);
#192=ADVANCED_FACE('',(#62),#36,.F.);
#193=ADVANCED_FACE('',(#63),#37,.T.);
#194=ADVANCED_FACE('',(#64,#29),#33,.T.);
#195=ADVANCED_FACE('',(#65,#30),#34,.F.);
#196=CLOSED_SHELL('',(#184,#185,#186,#187,#188,#189,#190,#191));
#197=CLOSED_SHELL('',(#192,#193,#194,#195));
#198=DERIVED_UNIT_ELEMENT(#202,1.);
#199=DERIVED_UNIT_ELEMENT(#416,-3.);
#200=DERIVED_UNIT_ELEMENT(#202,1.);
#201=DERIVED_UNIT_ELEMENT(#416,-3.);
#202=(
MASS_UNIT()
NAMED_UNIT(*)
SI_UNIT(.KILO.,.GRAM.)
);
#203=DERIVED_UNIT((#198,#199));
#204=DERIVED_UNIT((#200,#201));
#205=MEASURE_REPRESENTATION_ITEM('density measure',
POSITIVE_RATIO_MEASURE(7850.),#203);
#206=MEASURE_REPRESENTATION_ITEM('density measure',
POSITIVE_RATIO_MEASURE(7850.),#204);
#207=PROPERTY_DEFINITION_REPRESENTATION(#217,#211);
#208=PROPERTY_DEFINITION_REPRESENTATION(#218,#212);
#209=PROPERTY_DEFINITION_REPRESENTATION(#219,#213);
#210=PROPERTY_DEFINITION_REPRESENTATION(#220,#214);
#211=REPRESENTATION('material name',(#215),#412);
#212=REPRESENTATION('density',(#205),#412);
#213=REPRESENTATION('material name',(#216),#413);
#214=REPRESENTATION('density',(#206),#413);
#215=DESCRIPTIVE_REPRESENTATION_ITEM('Steel','Steel');
#216=DESCRIPTIVE_REPRESENTATION_ITEM('Steel','Steel');
#217=PROPERTY_DEFINITION('material property','material name',#432);
#218=PROPERTY_DEFINITION('material property','density of part',#432);
#219=PROPERTY_DEFINITION('material property','material name',#433);
#220=PROPERTY_DEFINITION('material property','density of part',#433);
#221=AXIS2_PLACEMENT_3D('',#326,#254,#255);
#222=AXIS2_PLACEMENT_3D('',#327,#256,#257);
#223=AXIS2_PLACEMENT_3D('',#357,#258,#259);
#224=AXIS2_PLACEMENT_3D('',#358,#260,#261);
#225=AXIS2_PLACEMENT_3D('',#360,#262,#263);
#226=AXIS2_PLACEMENT_3D('',#362,#264,#265);
#227=AXIS2_PLACEMENT_3D('',#363,#266,#267);
#228=AXIS2_PLACEMENT_3D('',#364,#268,#269);
#229=AXIS2_PLACEMENT_3D('',#366,#270,#271);
#230=AXIS2_PLACEMENT_3D('',#368,#272,#273);
#231=AXIS2_PLACEMENT_3D('',#369,#274,#275);
#232=AXIS2_PLACEMENT_3D('',#370,#276,#277);
#233=AXIS2_PLACEMENT_3D('',#373,#279,#280);
#234=AXIS2_PLACEMENT_3D('',#374,#281,#282);
#235=AXIS2_PLACEMENT_3D('',#376,#283,#284);
#236=AXIS2_PLACEMENT_3D('',#378,#286,#287);
#237=AXIS2_PLACEMENT_3D('',#381,#288,#289);
#238=AXIS2_PLACEMENT_3D('',#383,#291,#292);
#239=AXIS2_PLACEMENT_3D('',#384,#293,#294);
#240=AXIS2_PLACEMENT_3D('',#387,#296,#297);
#241=AXIS2_PLACEMENT_3D('',#388,#298,#299);
#242=AXIS2_PLACEMENT_3D('',#389,#300,#301);
#243=AXIS2_PLACEMENT_3D('',#390,#302,#303);
#244=AXIS2_PLACEMENT_3D('',#391,#304,#305);
#245=AXIS2_PLACEMENT_3D('',#393,#306,#307);
#246=AXIS2_PLACEMENT_3D('',#396,#309,#310);
#247=AXIS2_PLACEMENT_3D('',#397,#311,#312);
#248=AXIS2_PLACEMENT_3D('',#399,#313,#314);
#249=AXIS2_PLACEMENT_3D('',#402,#316,#317);
#250=AXIS2_PLACEMENT_3D('',#403,#318,#319);
#251=AXIS2_PLACEMENT_3D('',#404,#320,#321);
#252=AXIS2_PLACEMENT_3D('',#405,#322,#323);
#253=AXIS2_PLACEMENT_3D('',#406,#324,#325);
#254=DIRECTION('axis',(0.,0.,1.));
#255=DIRECTION('refdir',(1.,0.,0.));
#256=DIRECTION('axis',(0.,0.,1.));
#257=DIRECTION('refdir',(1.,0.,0.));
#258=DIRECTION('center_axis',(0.,1.,0.));
#259=DIRECTION('ref_axis',(0.,0.,1.));
#260=DIRECTION('center_axis',(0.,1.,0.));
#261=DIRECTION('ref_axis',(0.,0.,1.));
#262=DIRECTION('center_axis',(-1.,-1.44939118614303E-16,-1.22464679914734E-16));
#263=DIRECTION('ref_axis',(-1.22464679914735E-16,7.40148683083438E-15,1.));
#264=DIRECTION('center_axis',(0.,-1.,0.));
#265=DIRECTION('ref_axis',(0.,0.,-1.));
#266=DIRECTION('center_axis',(0.,-1.,0.));
#267=DIRECTION('ref_axis',(0.,0.,-1.));
#268=DIRECTION('center_axis',(0.,-1.,0.));
#269=DIRECTION('ref_axis',(0.,0.,-1.));
#270=DIRECTION('center_axis',(0.,-1.,0.));
#271=DIRECTION('ref_axis',(0.,0.,-1.));
#272=DIRECTION('center_axis',(-1.,0.,-1.22464679914735E-16));
#273=DIRECTION('ref_axis',(-1.22464679914735E-16,0.,1.));
#274=DIRECTION('center_axis',(0.,1.,0.));
#275=DIRECTION('ref_axis',(0.,0.,-1.));
#276=DIRECTION('center_axis',(0.,1.,0.));
#277=DIRECTION('ref_axis',(0.,0.,1.));
#278=DIRECTION('',(-4.27395569285756E-18,0.999390827019096,-0.0348994967025044));
#279=DIRECTION('center_axis',(0.,-1.,0.));
#280=DIRECTION('ref_axis',(0.,0.,-1.));
#281=DIRECTION('center_axis',(0.,1.,0.));
#282=DIRECTION('ref_axis',(0.,0.,-1.));
#283=DIRECTION('center_axis',(0.,1.,0.));
#284=DIRECTION('ref_axis',(0.,0.,1.));
#285=DIRECTION('',(-4.27395569285716E-18,-0.999390827019096,-0.0348994967025011));
#286=DIRECTION('center_axis',(0.,1.,0.));
#287=DIRECTION('ref_axis',(0.,0.,1.));
#288=DIRECTION('center_axis',(0.,-1.,0.));
#289=DIRECTION('ref_axis',(0.,0.,-1.));
#290=DIRECTION('',(-1.15079156022785E-16,0.342020143325669,-0.939692620785908));
#291=DIRECTION('center_axis',(0.,-1.,0.));
#292=DIRECTION('ref_axis',(0.,0.,-1.));
#293=DIRECTION('center_axis',(0.,-1.,0.));
#294=DIRECTION('ref_axis',(0.,0.,-1.));
#295=DIRECTION('',(0.,-1.,0.));
#296=DIRECTION('center_axis',(0.,-1.,0.));
#297=DIRECTION('ref_axis',(0.,0.,-1.));
#298=DIRECTION('center_axis',(0.,-1.,0.));
#299=DIRECTION('ref_axis',(0.,0.,-1.));
#300=DIRECTION('center_axis',(0.,1.,0.));
#301=DIRECTION('ref_axis',(1.,0.,0.));
#302=DIRECTION('axis',(0.,0.,1.));
#303=DIRECTION('refdir',(1.,0.,0.));
#304=DIRECTION('center_axis',(0.,1.,0.));
#305=DIRECTION('ref_axis',(-1.,0.,0.));
#306=DIRECTION('center_axis',(0.,1.,0.));
#307=DIRECTION('ref_axis',(-1.,0.,0.));
#308=DIRECTION('',(0.,1.,0.));
#309=DIRECTION('center_axis',(0.,-1.,0.));
#310=DIRECTION('ref_axis',(-1.,0.,0.));
#311=DIRECTION('center_axis',(0.,1.,0.));
#312=DIRECTION('ref_axis',(1.,0.,0.));
#313=DIRECTION('center_axis',(0.,1.,0.));
#314=DIRECTION('ref_axis',(1.,0.,0.));
#315=DIRECTION('',(0.,-1.,0.));
#316=DIRECTION('center_axis',(0.,-1.,0.));
#317=DIRECTION('ref_axis',(1.,0.,0.));
#318=DIRECTION('center_axis',(0.,-1.,0.));
#319=DIRECTION('ref_axis',(1.,0.,0.));
#320=DIRECTION('center_axis',(0.,-1.,0.));
#321=DIRECTION('ref_axis',(1.,0.,0.));
#322=DIRECTION('',(0.,0.,1.));
#323=DIRECTION('',(1.,0.,0.));
#324=DIRECTION('',(0.,0.,1.));
#325=DIRECTION('',(1.,0.,0.));
#326=CARTESIAN_POINT('',(0.,0.,0.));
#327=CARTESIAN_POINT('',(0.,0.,0.));
#328=CARTESIAN_POINT('Ctrl Pts',(-1.3617579286418E-15,2.41474061369683,
3.));
#329=CARTESIAN_POINT('Ctrl Pts',(-3.,2.41474061369683,3.));
#330=CARTESIAN_POINT('Ctrl Pts',(-3.,2.41474061369681,-4.85722573273709E-16));
#331=CARTESIAN_POINT('Ctrl Pts',(-3.,2.41474061369679,-3.));
#332=CARTESIAN_POINT('Ctrl Pts',(-1.3617579286418E-15,2.41474061369679,
-3.));
#333=CARTESIAN_POINT('Ctrl Pts',(3.,2.41474061369679,-3.));
#334=CARTESIAN_POINT('Ctrl Pts',(3.,2.41474061369681,-4.85722573273715E-16));
#335=CARTESIAN_POINT('Ctrl Pts',(3.,2.41474061369683,3.));
#336=CARTESIAN_POINT('Ctrl Pts',(-1.3617579286418E-15,2.41474061369683,
3.));
#337=CARTESIAN_POINT('Ctrl Pts',(-1.20952673348898E-15,1.36442930638224,
3.00000000000003));
#338=CARTESIAN_POINT('Ctrl Pts',(-3.00000000000002,1.36442930638224,3.00000000000003));
#339=CARTESIAN_POINT('Ctrl Pts',(-3.00000000000002,1.36442930638221,7.25297133853783E-15));
#340=CARTESIAN_POINT('Ctrl Pts',(-3.00000000000002,1.36442930638219,-3.00000000000001));
#341=CARTESIAN_POINT('Ctrl Pts',(-1.20952673348898E-15,1.36442930638219,
-3.00000000000001));
#342=CARTESIAN_POINT('Ctrl Pts',(3.00000000000002,1.36442930638219,-3.00000000000001));
#343=CARTESIAN_POINT('Ctrl Pts',(3.00000000000002,1.36442930638222,7.25297133853782E-15));
#344=CARTESIAN_POINT('Ctrl Pts',(3.00000000000002,1.36442930638224,3.00000000000003));
#345=CARTESIAN_POINT('Ctrl Pts',(-1.20952673348898E-15,1.36442930638224,
3.00000000000003));
#346=CARTESIAN_POINT('Ctrl Pts',(-1.15746059830418E-15,1.00520168251794,
2.0130302149885));
#347=CARTESIAN_POINT('Ctrl Pts',(-2.01303021498849,1.00520168251794,2.0130302149885));
#348=CARTESIAN_POINT('Ctrl Pts',(-2.01303021498849,1.00520168251793,9.89976053940894E-15));
#349=CARTESIAN_POINT('Ctrl Pts',(-2.01303021498849,1.00520168251791,-2.01303021498848));
#350=CARTESIAN_POINT('Ctrl Pts',(-1.15746059830418E-15,1.00520168251791,
-2.01303021498848));
#351=CARTESIAN_POINT('Ctrl Pts',(2.01303021498848,1.00520168251791,-2.01303021498848));
#352=CARTESIAN_POINT('Ctrl Pts',(2.01303021498848,1.00520168251793,9.89976053940894E-15));
#353=CARTESIAN_POINT('Ctrl Pts',(2.01303021498848,1.00520168251794,2.0130302149885));
#354=CARTESIAN_POINT('Ctrl Pts',(-1.15746059830418E-15,1.00520168251794,
2.0130302149885));
#355=CARTESIAN_POINT('',(-2.46525100937257E-16,1.00520168251793,-2.0130302149885));
#356=CARTESIAN_POINT('',(-1.40398569924144E-15,1.00520168251793,2.0130302149885));
#357=CARTESIAN_POINT('Origin',(0.,1.00520168251793,0.));
#358=CARTESIAN_POINT('Origin',(0.,1.00520168251793,0.));
#359=CARTESIAN_POINT('',(-1.729151968386E-15,2.41474061369679,3.));
#360=CARTESIAN_POINT('Origin',(-1.5454549485139E-15,2.4147406136968,1.50000000000002));
#361=CARTESIAN_POINT('',(-3.67394039744206E-16,2.41474061369679,-3.));
#362=CARTESIAN_POINT('Origin',(0.,2.41474061369679,0.));
#363=CARTESIAN_POINT('Origin',(0.,2.41474061369679,0.));
#364=CARTESIAN_POINT('Origin',(0.,0.5,0.));
#365=CARTESIAN_POINT('',(-4.30727336306941E-16,0.,3.51715561259646));
#366=CARTESIAN_POINT('Origin',(0.,0.,0.));
#367=CARTESIAN_POINT('',(-4.91922375177249E-16,0.482550251648756,4.01685102610601));
#368=CARTESIAN_POINT('Origin',(-4.3072733630694E-16,0.5,3.51715561259646));
#369=CARTESIAN_POINT('Origin',(0.,0.482550251648756,0.));
#370=CARTESIAN_POINT('Origin',(0.,10.,0.));
#371=CARTESIAN_POINT('',(-3.9983286313484E-16,10.,-3.26488309456424));
#372=CARTESIAN_POINT('',(-3.9983286313484E-16,10.,-3.26488309456424));
#373=CARTESIAN_POINT('Origin',(0.,10.,0.));
#374=CARTESIAN_POINT('Origin',(0.,0.,0.));
#375=CARTESIAN_POINT('',(5.32624328240773E-16,10.,4.34920769491748));
#376=CARTESIAN_POINT('Origin',(0.,10.,0.));
#377=CARTESIAN_POINT('',(4.89858719658941E-16,0.,4.));
#378=CARTESIAN_POINT('Origin',(0.,0.5,0.));
#379=CARTESIAN_POINT('',(7.65404249467096E-17,0.5,0.625));
#380=CARTESIAN_POINT('',(-7.65404249467096E-17,0.5,-0.625));
#381=CARTESIAN_POINT('Origin',(0.,0.5,0.));
#382=CARTESIAN_POINT('',(-7.65404249467096E-17,0.5,-0.625));
#383=CARTESIAN_POINT('Origin',(0.,0.5,0.));
#384=CARTESIAN_POINT('Origin',(0.,0.,0.));
#385=CARTESIAN_POINT('',(-7.65404249467096E-17,0.,0.625));
#386=CARTESIAN_POINT('',(-7.65404249467096E-17,0.,0.625));
#387=CARTESIAN_POINT('Origin',(0.,0.,0.));
#388=CARTESIAN_POINT('Origin',(0.,0.,0.));
#389=CARTESIAN_POINT('Origin',(0.,10.,0.));
#390=CARTESIAN_POINT('',(0.,0.,0.));
#391=CARTESIAN_POINT('Origin',(0.,0.,0.));
#392=CARTESIAN_POINT('',(3.51715561259646,0.,-4.30727336306941E-16));
#393=CARTESIAN_POINT('Origin',(0.,0.,0.));
#394=CARTESIAN_POINT('',(3.51715561259646,0.001,-4.30727336306941E-16));
#395=CARTESIAN_POINT('',(3.51715561259646,0.,-4.3072733630694E-16));
#396=CARTESIAN_POINT('Origin',(0.,0.001,0.));
#397=CARTESIAN_POINT('Origin',(0.,0.,0.));
#398=CARTESIAN_POINT('',(-4.5,0.001,-5.51091059616309E-16));
#399=CARTESIAN_POINT('Origin',(0.,0.001,0.));
#400=CARTESIAN_POINT('',(-4.5,0.,-5.51091059616309E-16));
#401=CARTESIAN_POINT('',(-4.5,0.,5.51091059616309E-16));
#402=CARTESIAN_POINT('Origin',(0.,0.,0.));
#403=CARTESIAN_POINT('Origin',(0.,0.,0.));
#404=CARTESIAN_POINT('Origin',(0.,0.001,0.));
#405=CARTESIAN_POINT('',(0.,0.,0.));
#406=CARTESIAN_POINT('',(0.,0.,0.));
#407=UNCERTAINTY_MEASURE_WITH_UNIT(LENGTH_MEASURE(0.01),#415,
'DISTANCE_ACCURACY_VALUE',
'Maximum model space distance between geometric entities at asserted c
onnectivities');
#408=UNCERTAINTY_MEASURE_WITH_UNIT(LENGTH_MEASURE(0.01),#415,
'DISTANCE_ACCURACY_VALUE',
'Maximum model space distance between geometric entities at asserted c
onnectivities');
#409=UNCERTAINTY_MEASURE_WITH_UNIT(LENGTH_MEASURE(0.01),#415,
'DISTANCE_ACCURACY_VALUE',
'Maximum model space distance between geometric entities at asserted c
onnectivities');
#410=UNCERTAINTY_MEASURE_WITH_UNIT(LENGTH_MEASURE(0.01),#415,
'DISTANCE_ACCURACY_VALUE',
'Maximum model space distance between geometric entities at asserted c
onnectivities');
#411=(
GEOMETRIC_REPRESENTATION_CONTEXT(3)
GLOBAL_UNCERTAINTY_ASSIGNED_CONTEXT((#407))
GLOBAL_UNIT_ASSIGNED_CONTEXT((#415,#417,#418))
REPRESENTATION_CONTEXT('','3D')
);
#412=(
GEOMETRIC_REPRESENTATION_CONTEXT(3)
GLOBAL_UNCERTAINTY_ASSIGNED_CONTEXT((#408))
GLOBAL_UNIT_ASSIGNED_CONTEXT((#415,#417,#418))
REPRESENTATION_CONTEXT('','3D')
);
#413=(
GEOMETRIC_REPRESENTATION_CONTEXT(3)
GLOBAL_UNCERTAINTY_ASSIGNED_CONTEXT((#409))
GLOBAL_UNIT_ASSIGNED_CONTEXT((#415,#417,#418))
REPRESENTATION_CONTEXT('','3D')
);
#414=(
GEOMETRIC_REPRESENTATION_CONTEXT(3)
GLOBAL_UNCERTAINTY_ASSIGNED_CONTEXT((#410))
GLOBAL_UNIT_ASSIGNED_CONTEXT((#415,#417,#418))
REPRESENTATION_CONTEXT('','3D')
);
#415=(
LENGTH_UNIT()
NAMED_UNIT(*)
SI_UNIT(.MILLI.,.METRE.)
);
#416=(
LENGTH_UNIT()
NAMED_UNIT(*)
SI_UNIT($,.METRE.)
);
#417=(
NAMED_UNIT(*)
PLANE_ANGLE_UNIT()
SI_UNIT($,.RADIAN.)
);
#418=(
NAMED_UNIT(*)
SI_UNIT($,.STERADIAN.)
SOLID_ANGLE_UNIT()
);
#419=SHAPE_DEFINITION_REPRESENTATION(#422,#427);
#420=SHAPE_DEFINITION_REPRESENTATION(#423,#428);
#421=SHAPE_DEFINITION_REPRESENTATION(#424,#429);
#422=PRODUCT_DEFINITION_SHAPE('',$,#431);
#423=PRODUCT_DEFINITION_SHAPE('',$,#432);
#424=PRODUCT_DEFINITION_SHAPE('',$,#433);
#425=PRODUCT_DEFINITION_SHAPE($,$,#17);
#426=PRODUCT_DEFINITION_SHAPE($,$,#18);
#427=SHAPE_REPRESENTATION('',(#221,#252,#253),#411);
#428=SHAPE_REPRESENTATION('',(#222),#412);
#429=SHAPE_REPRESENTATION('',(#243),#413);
#430=PRODUCT_DEFINITION_CONTEXT('part definition',#441,'design');
#431=PRODUCT_DEFINITION('250uL_reservoir_2025_02_03',
'250uL_reservoir_2025_02_20 v2',#434,#430);
#432=PRODUCT_DEFINITION('Reservoir','Reservoir',#435,#430);
#433=PRODUCT_DEFINITION('Safe area','Safe area',#436,#430);
#434=PRODUCT_DEFINITION_FORMATION('',$,#443);
#435=PRODUCT_DEFINITION_FORMATION('',$,#444);
#436=PRODUCT_DEFINITION_FORMATION('',$,#445);
#437=PRODUCT_RELATED_PRODUCT_CATEGORY('250uL_reservoir_2025_02_20 v2',
'250uL_reservoir_2025_02_20 v2',(#443));
#438=PRODUCT_RELATED_PRODUCT_CATEGORY('Reservoir','Reservoir',(#444));
#439=PRODUCT_RELATED_PRODUCT_CATEGORY('Safe area','Safe area',(#445));
#440=APPLICATION_PROTOCOL_DEFINITION('international standard',
'ap242_managed_model_based_3d_engineering',2011,#441);
#441=APPLICATION_CONTEXT('Managed model based 3d engineering');
#442=PRODUCT_CONTEXT('part definition',#441,'mechanical');
#443=PRODUCT('250uL_reservoir_2025_02_03',
'250uL_reservoir_2025_02_20 v2',$,(#442));
#444=PRODUCT('Reservoir','Reservoir',$,(#442));
#445=PRODUCT('Safe area','Safe area',$,(#442));
#446=PRESENTATION_STYLE_ASSIGNMENT((#449));
#447=PRESENTATION_STYLE_ASSIGNMENT((#450));
#448=PRESENTATION_STYLE_ASSIGNMENT((#451));
#449=SURFACE_STYLE_USAGE(.BOTH.,#452);
#450=SURFACE_STYLE_USAGE(.BOTH.,#453);
#451=SURFACE_STYLE_USAGE(.BOTH.,#454);
#452=SURFACE_SIDE_STYLE('',(#455));
#453=SURFACE_SIDE_STYLE('',(#456));
#454=SURFACE_SIDE_STYLE('',(#457));
#455=SURFACE_STYLE_FILL_AREA(#458);
#456=SURFACE_STYLE_FILL_AREA(#459);
#457=SURFACE_STYLE_FILL_AREA(#460);
#458=FILL_AREA_STYLE('Steel - Satin',(#461));
#459=FILL_AREA_STYLE('Hardware',(#462));
#460=FILL_AREA_STYLE('Safe area',(#463));
#461=FILL_AREA_STYLE_COLOUR('Steel - Satin',#464);
#462=FILL_AREA_STYLE_COLOUR('Hardware',#465);
#463=FILL_AREA_STYLE_COLOUR('Safe area',#466);
#464=COLOUR_RGB('Steel - Satin',0.627450980392157,0.627450980392157,0.627450980392157);
#465=COLOUR_RGB('Hardware',0.176470588235294,0.572549019607843,0.984313725490196);
#466=COLOUR_RGB('Safe area',0.643137254901961,0.0784313725490196,0.0823529411764706);
ENDSEC;
END-ISO-10303-21;
